ISO-10303-21;
HEADER;
FILE_DESCRIPTION (( 'STEP AP203' ),
    '1' );
FILE_NAME ('MHWP-25.4-1310.STEP',
    '2020-12-22T09:25:45',
    ( '' ),
    ( '' ),
    'SwSTEP 2.0',
    'SolidWorks 2020',
    '' );
FILE_SCHEMA (( 'CONFIG_CONTROL_DESIGN' ));
ENDSEC;

DATA;
#1 = FACE_OUTER_BOUND ( 'NONE', #44, .T. ) ;
#2 = CC_DESIGN_APPROVAL ( #77, ( #149 ) ) ;
#3 = DIRECTION ( 'NONE',  ( 1.000000000000000000, 0.000000000000000000, 0.000000000000000000 ) ) ;
#4 = MANIFOLD_SOLID_BREP ( 'Ðý×', #39 ) ;
#5 = APPLICATION_PROTOCOL_DEFINITION ( 'international standard', 'config_control_design', 1994, #50 ) ;
#6 = ADVANCED_FACE ( 'NONE', ( #55 ), #157, .T. ) ;
#7 = DIRECTION ( 'NONE',  ( 0.000000000000000000, 0.000000000000000000, -1.000000000000000000 ) ) ;
#8 = DATE_AND_TIME ( #30, #175 ) ;
#9 = VERTEX_POINT ( 'NONE', #92 ) ;
#10 = AXIS2_PLACEMENT_3D ( 'NONE', #46, #104, #122 ) ;
#11 = DATE_TIME_ROLE ( 'creation_date' ) ;
#12 = CC_DESIGN_PERSON_AND_ORGANIZATION_ASSIGNMENT ( #159, #172, ( #37 ) ) ;
#13 = AXIS2_PLACEMENT_3D ( 'NONE', #152, #129, #31 ) ;
#14 = APPROVAL_DATE_TIME ( #94, #147 ) ;
#15 = AXIS2_PLACEMENT_3D ( 'NONE', #26, #86, #170 ) ;
#16 = VERTEX_POINT ( 'NONE', #87 ) ;
#17 = CYLINDRICAL_SURFACE ( 'NONE', #127, 12.69999999999999929 ) ;
#18 = APPROVAL_STATUS ( 'not_yet_approved' ) ;
#19 = CARTESIAN_POINT ( 'NONE',  ( -5.939536975864662969E-16, 12.69999999999999929, 0.000000000000000000 ) ) ;
#20 = PERSON_AND_ORGANIZATION ( #173, #58 ) ;
#21 = VERTEX_POINT ( 'NONE', #138 ) ;
#22 = PERSON_AND_ORGANIZATION_ROLE ( 'design_owner' ) ;
#23 = VECTOR ( 'NONE', #141, 1000.000000000000000 ) ;
#24 = SECURITY_CLASSIFICATION_LEVEL ( 'unclassified' ) ;
#25 = LOCAL_TIME ( 17, 25, 45.00000000000000000, #130 ) ;
#26 = CARTESIAN_POINT ( 'NONE',  ( 1.999999999999998224, 0.000000000000000000, 0.000000000000000000 ) ) ;
#27 = ORIENTED_EDGE ( 'NONE', *, *, #96, .F. ) ;
#28 = CC_DESIGN_DATE_AND_TIME_ASSIGNMENT ( #45, #11, ( #149 ) ) ;
#29 = DIRECTION ( 'NONE',  ( -1.000000000000000000, -0.000000000000000000, -0.000000000000000000 ) ) ;
#30 = CALENDAR_DATE ( 2020, 22, 12 ) ;
#31 = DIRECTION ( 'NONE',  ( 0.000000000000000000, 0.000000000000000000, 1.000000000000000000 ) ) ;
#32 = DIRECTION ( 'NONE',  ( -1.000000000000000000, 0.000000000000000000, -0.000000000000000000 ) ) ;
#33 = CC_DESIGN_PERSON_AND_ORGANIZATION_ASSIGNMENT ( #20, #22, ( #119 ) ) ;
#34 = CARTESIAN_POINT ( 'NONE',  ( -1.187907395172932594E-15, 0.000000000000000000, 0.000000000000000000 ) ) ;
#35 = PERSON_AND_ORGANIZATION ( #173, #58 ) ;
#36 = ADVANCED_FACE ( 'NONE', ( #1 ), #17, .T. ) ;
#37 = SECURITY_CLASSIFICATION ( '', '', #24 ) ;
#38 = CALENDAR_DATE ( 2020, 22, 12 ) ;
#39 = CLOSED_SHELL ( 'NONE', ( #6, #36, #161, #73 ) ) ;
#40 = ORIENTED_EDGE ( 'NONE', *, *, #64, .F. ) ;
#41 = DIRECTION ( 'NONE',  ( -1.000000000000000000, -0.000000000000000000, -0.000000000000000000 ) ) ;
#42 = APPLICATION_PROTOCOL_DEFINITION ( 'international standard', 'config_control_design', 1994, #116 ) ;
#43 = COORDINATED_UNIVERSAL_TIME_OFFSET ( 8, 0, .AHEAD. ) ;
#44 = EDGE_LOOP ( 'NONE', ( #40, #120, #69, #134 ) ) ;
#45 = DATE_AND_TIME ( #144, #25 ) ;
#46 = CARTESIAN_POINT ( 'NONE',  ( -1.187907395172932594E-15, 0.000000000000000000, 0.000000000000000000 ) ) ;
#47 =( LENGTH_UNIT ( ) NAMED_UNIT ( * ) SI_UNIT ( .MILLI., .METRE. ) );
#48 = DATE_AND_TIME ( #38, #114 ) ;
#49 = AXIS2_PLACEMENT_3D ( 'NONE', #19, #132, #7 ) ;
#50 = APPLICATION_CONTEXT ( 'configuration controlled 3d designs of mechanical parts and assemblies' ) ;
#51 = CALENDAR_DATE ( 2020, 22, 12 ) ;
#52 = ORIENTED_EDGE ( 'NONE', *, *, #64, .T. ) ;
#53 = EDGE_LOOP ( 'NONE', ( #54, #71 ) ) ;
#54 = ORIENTED_EDGE ( 'NONE', *, *, #110, .T. ) ;
#55 = FACE_OUTER_BOUND ( 'NONE', #166, .T. ) ;
#56 = LINE ( 'NONE', #167, #23 ) ;
#57 = DIRECTION ( 'NONE',  ( -1.000000000000000000, -0.000000000000000000, -0.000000000000000000 ) ) ;
#58 = ORGANIZATION ( 'UNSPECIFIED', 'UNSPECIFIED', '' ) ;
#59 = APPROVAL_DATE_TIME ( #107, #111 ) ;
#60 = CIRCLE ( 'NONE', #10, 12.69999999999999929 ) ;
#61 = LOCAL_TIME ( 17, 25, 45.00000000000000000, #174 ) ;
#62 = CC_DESIGN_PERSON_AND_ORGANIZATION_ASSIGNMENT ( #35, #66, ( #149 ) ) ;
#63 = DESIGN_CONTEXT ( 'detailed design', #116, 'design' ) ;
#64 = EDGE_CURVE ( 'NONE', #9, #16, #151, .T. ) ;
#65 = ORIENTED_EDGE ( 'NONE', *, *, #98, .F. ) ;
#66 = PERSON_AND_ORGANIZATION_ROLE ( 'creator' ) ;
#67 = CIRCLE ( 'NONE', #135, 12.69999999999999929 ) ;
#68 = APPROVAL_PERSON_ORGANIZATION ( #72, #77, #133 ) ;
#69 = ORIENTED_EDGE ( 'NONE', *, *, #128, .T. ) ;
#70 = CARTESIAN_POINT ( 'NONE',  ( 1.999999999999998224, 0.000000000000000000, 12.69999999999999929 ) ) ;
#71 = ORIENTED_EDGE ( 'NONE', *, *, #106, .T. ) ;
#72 = PERSON_AND_ORGANIZATION ( #173, #58 ) ;
#73 = ADVANCED_FACE ( 'NONE', ( #90 ), #140, .F. ) ;
#74 = CARTESIAN_POINT ( 'NONE',  ( 1.999999999999998224, 0.000000000000000000, 0.000000000000000000 ) ) ;
#75 =( NAMED_UNIT ( * ) SI_UNIT ( $, .STERADIAN. ) SOLID_ANGLE_UNIT ( ) );
#76 = DIRECTION ( 'NONE',  ( 0.000000000000000000, 0.000000000000000000, 1.000000000000000000 ) ) ;
#77 = APPROVAL ( #18, 'UNSPECIFIED' ) ;
#78 = PERSON_AND_ORGANIZATION ( #173, #58 ) ;
#79 = APPROVAL_STATUS ( 'not_yet_approved' ) ;
#80 = CIRCLE ( 'NONE', #102, 12.69999999999999929 ) ;
#81 = APPROVAL_PERSON_ORGANIZATION ( #99, #147, #153 ) ;
#82 = APPROVAL_ROLE ( '' ) ;
#83 = CALENDAR_DATE ( 2020, 22, 12 ) ;
#84 =( GEOMETRIC_REPRESENTATION_CONTEXT ( 3 ) GLOBAL_UNCERTAINTY_ASSIGNED_CONTEXT ( ( #163 ) ) GLOBAL_UNIT_ASSIGNED_CONTEXT ( ( #47, #105, #75 ) ) REPRESENTATION_CONTEXT ( 'NONE', 'WORKASPACE' ) );
#85 = ADVANCED_BREP_SHAPE_REPRESENTATION ( 'MHWP-25.4-1310', ( #4, #162 ), #84 ) ;
#86 = DIRECTION ( 'NONE',  ( -1.000000000000000000, -0.000000000000000000, -0.000000000000000000 ) ) ;
#87 = CARTESIAN_POINT ( 'NONE',  ( -1.187907395172932594E-15, 1.555301434917138433E-15, -12.69999999999999929 ) ) ;
#88 = ORIENTED_EDGE ( 'NONE', *, *, #128, .F. ) ;
#89 = PLANE ( 'NONE',  #137 ) ;
#90 = FACE_OUTER_BOUND ( 'NONE', #53, .T. ) ;
#91 = CARTESIAN_POINT ( 'NONE',  ( 1.999999999999999112, 12.69999999999999929, 0.000000000000000000 ) ) ;
#92 = CARTESIAN_POINT ( 'NONE',  ( 1.999999999999998224, 1.555301434917138433E-15, -12.69999999999999929 ) ) ;
#93 = MECHANICAL_CONTEXT ( 'NONE', #50, 'mechanical' ) ;
#94 = DATE_AND_TIME ( #51, #97 ) ;
#95 = APPROVAL_PERSON_ORGANIZATION ( #148, #111, #82 ) ;
#96 = EDGE_CURVE ( 'NONE', #9, #168, #67, .T. ) ;
#97 = LOCAL_TIME ( 17, 25, 45.00000000000000000, #109 ) ;
#98 = EDGE_CURVE ( 'NONE', #168, #9, #146, .T. ) ;
#99 = PERSON_AND_ORGANIZATION ( #173, #58 ) ;
#100 = APPROVAL_STATUS ( 'not_yet_approved' ) ;
#101 = ORIENTED_EDGE ( 'NONE', *, *, #110, .F. ) ;
#102 = AXIS2_PLACEMENT_3D ( 'NONE', #34, #156, #76 ) ;
#103 = EDGE_LOOP ( 'NONE', ( #65, #27 ) ) ;
#104 = DIRECTION ( 'NONE',  ( -1.000000000000000000, -0.000000000000000000, -0.000000000000000000 ) ) ;
#105 =( NAMED_UNIT ( * ) PLANE_ANGLE_UNIT ( ) SI_UNIT ( $, .RADIAN. ) );
#106 = EDGE_CURVE ( 'NONE', #16, #21, #60, .T. ) ;
#107 = DATE_AND_TIME ( #83, #61 ) ;
#108 = SHAPE_DEFINITION_REPRESENTATION ( #154, #85 ) ;
#109 = COORDINATED_UNIVERSAL_TIME_OFFSET ( 8, 0, .AHEAD. ) ;
#110 = EDGE_CURVE ( 'NONE', #21, #16, #80, .T. ) ;
#111 = APPROVAL ( #79, 'UNSPECIFIED' ) ;
#112 = CC_DESIGN_APPROVAL ( #147, ( #165 ) ) ;
#113 = CC_DESIGN_DATE_AND_TIME_ASSIGNMENT ( #48, #160, ( #37 ) ) ;
#114 = LOCAL_TIME ( 17, 25, 45.00000000000000000, #125 ) ;
#115 = CARTESIAN_POINT ( 'NONE',  ( 0.000000000000000000, 0.000000000000000000, 0.000000000000000000 ) ) ;
#116 = APPLICATION_CONTEXT ( 'configuration controlled 3d designs of mechanical parts and assemblies' ) ;
#117 = DIRECTION ( 'NONE',  ( 0.000000000000000000, 0.000000000000000000, 1.000000000000000000 ) ) ;
#118 = CARTESIAN_POINT ( 'NONE',  ( 0.000000000000000000, 0.000000000000000000, 0.000000000000000000 ) ) ;
#119 = PRODUCT ( 'MHWP-25.4-1310', 'MHWP-25.4-1310', '', ( #93 ) ) ;
#120 = ORIENTED_EDGE ( 'NONE', *, *, #96, .T. ) ;
#121 = CC_DESIGN_SECURITY_CLASSIFICATION ( #37, ( #165 ) ) ;
#122 = DIRECTION ( 'NONE',  ( 0.000000000000000000, 0.000000000000000000, 1.000000000000000000 ) ) ;
#123 = CC_DESIGN_PERSON_AND_ORGANIZATION_ASSIGNMENT ( #78, #136, ( #165 ) ) ;
#124 = PERSON_AND_ORGANIZATION_ROLE ( 'creator' ) ;
#125 = COORDINATED_UNIVERSAL_TIME_OFFSET ( 8, 0, .AHEAD. ) ;
#126 = PERSON_AND_ORGANIZATION ( #173, #58 ) ;
#127 = AXIS2_PLACEMENT_3D ( 'NONE', #115, #41, #117 ) ;
#128 = EDGE_CURVE ( 'NONE', #168, #21, #56, .T. ) ;
#129 = DIRECTION ( 'NONE',  ( -1.000000000000000000, -0.000000000000000000, -0.000000000000000000 ) ) ;
#130 = COORDINATED_UNIVERSAL_TIME_OFFSET ( 8, 0, .AHEAD. ) ;
#131 = PRODUCT_RELATED_PRODUCT_CATEGORY ( 'detail', '', ( #119 ) ) ;
#132 = DIRECTION ( 'NONE',  ( 1.000000000000000000, 0.000000000000000000, 0.000000000000000000 ) ) ;
#133 = APPROVAL_ROLE ( '' ) ;
#134 = ORIENTED_EDGE ( 'NONE', *, *, #106, .F. ) ;
#135 = AXIS2_PLACEMENT_3D ( 'NONE', #74, #57, #164 ) ;
#136 = PERSON_AND_ORGANIZATION_ROLE ( 'design_supplier' ) ;
#137 = AXIS2_PLACEMENT_3D ( 'NONE', #91, #32, #142 ) ;
#138 = CARTESIAN_POINT ( 'NONE',  ( -1.187907395172932594E-15, 0.000000000000000000, 12.69999999999999929 ) ) ;
#139 = ORIENTED_EDGE ( 'NONE', *, *, #98, .T. ) ;
#140 = PLANE ( 'NONE',  #49 ) ;
#141 = DIRECTION ( 'NONE',  ( -1.000000000000000000, -0.000000000000000000, -0.000000000000000000 ) ) ;
#142 = DIRECTION ( 'NONE',  ( -0.000000000000000000, 0.000000000000000000, 1.000000000000000000 ) ) ;
#143 = VECTOR ( 'NONE', #29, 1000.000000000000000 ) ;
#144 = CALENDAR_DATE ( 2020, 22, 12 ) ;
#145 = CC_DESIGN_APPROVAL ( #111, ( #37 ) ) ;
#146 = CIRCLE ( 'NONE', #15, 12.69999999999999929 ) ;
#147 = APPROVAL ( #100, 'UNSPECIFIED' ) ;
#148 = PERSON_AND_ORGANIZATION ( #173, #58 ) ;
#149 = PRODUCT_DEFINITION ( 'UNKNOWN', '', #165, #63 ) ;
#150 = CC_DESIGN_PERSON_AND_ORGANIZATION_ASSIGNMENT ( #126, #124, ( #165 ) ) ;
#151 = LINE ( 'NONE', #155, #143 ) ;
#152 = CARTESIAN_POINT ( 'NONE',  ( 0.000000000000000000, 0.000000000000000000, 0.000000000000000000 ) ) ;
#153 = APPROVAL_ROLE ( '' ) ;
#154 = PRODUCT_DEFINITION_SHAPE ( 'NONE', 'NONE',  #149 ) ;
#155 = CARTESIAN_POINT ( 'NONE',  ( 0.000000000000000000, 1.555301434917138433E-15, -12.69999999999999929 ) ) ;
#156 = DIRECTION ( 'NONE',  ( -1.000000000000000000, -0.000000000000000000, -0.000000000000000000 ) ) ;
#157 = CYLINDRICAL_SURFACE ( 'NONE', #13, 12.69999999999999929 ) ;
#158 = DIRECTION ( 'NONE',  ( 0.000000000000000000, 0.000000000000000000, 1.000000000000000000 ) ) ;
#159 = PERSON_AND_ORGANIZATION ( #173, #58 ) ;
#160 = DATE_TIME_ROLE ( 'classification_date' ) ;
#161 = ADVANCED_FACE ( 'NONE', ( #171 ), #89, .F. ) ;
#162 = AXIS2_PLACEMENT_3D ( 'NONE', #118, #158, #3 ) ;
#163 = UNCERTAINTY_MEASURE_WITH_UNIT (LENGTH_MEASURE( 1.000000000000000082E-05 ), #47, 'distance_accuracy_value', 'NONE');
#164 = DIRECTION ( 'NONE',  ( 0.000000000000000000, 0.000000000000000000, 1.000000000000000000 ) ) ;
#165 = PRODUCT_DEFINITION_FORMATION_WITH_SPECIFIED_SOURCE ( 'ANY', '', #119, .NOT_KNOWN. ) ;
#166 = EDGE_LOOP ( 'NONE', ( #139, #52, #101, #88 ) ) ;
#167 = CARTESIAN_POINT ( 'NONE',  ( 0.000000000000000000, 0.000000000000000000, 12.69999999999999929 ) ) ;
#168 = VERTEX_POINT ( 'NONE', #70 ) ;
#169 = APPROVAL_DATE_TIME ( #8, #77 ) ;
#170 = DIRECTION ( 'NONE',  ( 0.000000000000000000, 0.000000000000000000, 1.000000000000000000 ) ) ;
#171 = FACE_OUTER_BOUND ( 'NONE', #103, .T. ) ;
#172 = PERSON_AND_ORGANIZATION_ROLE ( 'classification_officer' ) ;
#173 = PERSON ( 'UNSPECIFIED', 'UNSPECIFIED', 'UNSPECIFIED', ('UNSPECIFIED'), ('UNSPECIFIED'), ('UNSPECIFIED') ) ;
#174 = COORDINATED_UNIVERSAL_TIME_OFFSET ( 8, 0, .AHEAD. ) ;
#175 = LOCAL_TIME ( 17, 25, 45.00000000000000000, #43 ) ;
ENDSEC;
END-ISO-10303-21;
